ISO-10303-21;
HEADER;
FILE_DESCRIPTION (( 'STEP AP203' ),
    '1' );
FILE_NAME ('QB-CTZQWP-12.7-633-M.STEP',
    '2020-12-24T01:49:22',
    ( '' ),
    ( '' ),
    'SwSTEP 2.0',
    'SolidWorks 2020',
    '' );
FILE_SCHEMA (( 'CONFIG_CONTROL_DESIGN' ));
ENDSEC;

DATA;
#1 = CIRCLE ( 'NONE', #200, 6.349999999999999645 ) ;
#2 = VERTEX_POINT ( 'NONE', #111 ) ;
#3 = DIRECTION ( 'NONE',  ( 0.000000000000000000, 0.000000000000000000, 1.000000000000000000 ) ) ;
#4 = EDGE_LOOP ( 'NONE', ( #108, #236, #259, #153 ) ) ;
#5 = CARTESIAN_POINT ( 'NONE',  ( 3.000000000000000888, 0.000000000000000000, 6.349999999999999645 ) ) ;
#6 = DIRECTION ( 'NONE',  ( -1.000000000000000000, -0.000000000000000000, -0.000000000000000000 ) ) ;
#7 = AXIS2_PLACEMENT_3D ( 'NONE', #192, #71, #146 ) ;
#8 = CARTESIAN_POINT ( 'NONE',  ( -1.614212418857619014, 0.000000000000000000, 0.000000000000000000 ) ) ;
#9 = EDGE_CURVE ( 'NONE', #260, #249, #18, .T. ) ;
#10 = DIRECTION ( 'NONE',  ( 0.000000000000000000, 0.000000000000000000, 1.000000000000000000 ) ) ;
#11 = DIRECTION ( 'NONE',  ( 0.000000000000000000, 0.000000000000000000, 1.000000000000000000 ) ) ;
#12 = PRODUCT_DEFINITION_SHAPE ( 'NONE', 'NONE',  #301 ) ;
#13 = DIRECTION ( 'NONE',  ( 1.000000000000000000, 0.000000000000000000, 0.000000000000000000 ) ) ;
#14 = APPLICATION_CONTEXT ( 'configuration controlled 3d designs of mechanical parts and assemblies' ) ;
#15 = CARTESIAN_POINT ( 'NONE',  ( -1.614212418857619014, 0.000000000000000000, 0.000000000000000000 ) ) ;
#16 = CC_DESIGN_DATE_AND_TIME_ASSIGNMENT ( #227, #72, ( #129 ) ) ;
#17 = DIRECTION ( 'NONE',  ( -1.000000000000000000, -0.000000000000000000, -0.000000000000000000 ) ) ;
#18 = CIRCLE ( 'NONE', #299, 6.349999999999999645 ) ;
#19 = DIRECTION ( 'NONE',  ( -1.000000000000000000, -0.000000000000000000, -0.000000000000000000 ) ) ;
#20 = APPROVAL_PERSON_ORGANIZATION ( #280, #82, #155 ) ;
#21 = FACE_OUTER_BOUND ( 'NONE', #266, .T. ) ;
#22 = PERSON_AND_ORGANIZATION_ROLE ( 'classification_officer' ) ;
#23 = APPROVAL ( #121, 'UNSPECIFIED' ) ;
#24 = ORIENTED_EDGE ( 'NONE', *, *, #202, .F. ) ;
#25 = ORIENTED_EDGE ( 'NONE', *, *, #9, .F. ) ;
#26 = LINE ( 'NONE', #283, #194 ) ;
#27 = VERTEX_POINT ( 'NONE', #245 ) ;
#28 = ORIENTED_EDGE ( 'NONE', *, *, #238, .T. ) ;
#29 = AXIS2_PLACEMENT_3D ( 'NONE', #244, #314, #11 ) ;
#30 = AXIS2_PLACEMENT_3D ( 'NONE', #168, #91, #270 ) ;
#31 = CC_DESIGN_PERSON_AND_ORGANIZATION_ASSIGNMENT ( #118, #96, ( #301 ) ) ;
#32 = ORIENTED_EDGE ( 'NONE', *, *, #171, .T. ) ;
#33 = FACE_OUTER_BOUND ( 'NONE', #282, .T. ) ;
#34 = CIRCLE ( 'NONE', #219, 6.349999999999999645 ) ;
#35 = AXIS2_PLACEMENT_3D ( 'NONE', #97, #198, #92 ) ;
#36 = CARTESIAN_POINT ( 'NONE',  ( -1.614212418857619014, 7.776507174585692163E-16, -6.349999999999999645 ) ) ;
#37 = EDGE_CURVE ( 'NONE', #164, #249, #297, .T. ) ;
#38 = LINE ( 'NONE', #298, #65 ) ;
#39 = CARTESIAN_POINT ( 'NONE',  ( 3.000000000000000000, 1.555301434917138433E-15, -12.69999999999999929 ) ) ;
#40 = LOCAL_TIME ( 9, 49, 22.00000000000000000, #230 ) ;
#41 = DIRECTION ( 'NONE',  ( 0.000000000000000000, 0.000000000000000000, 1.000000000000000000 ) ) ;
#42 = EDGE_CURVE ( 'NONE', #159, #258, #70, .T. ) ;
#43 = CARTESIAN_POINT ( 'NONE',  ( -1.500000000000000444, 7.776507174585692163E-16, -6.349999999999999645 ) ) ;
#44 = FACE_BOUND ( 'NONE', #131, .T. ) ;
#45 = DATE_AND_TIME ( #102, #100 ) ;
#46 = CIRCLE ( 'NONE', #35, 12.69999999999999929 ) ;
#47 = ADVANCED_FACE ( 'NONE', ( #291 ), #188, .T. ) ;
#48 = CALENDAR_DATE ( 2020, 24, 12 ) ;
#49 = VERTEX_POINT ( 'NONE', #116 ) ;
#50 =( GEOMETRIC_REPRESENTATION_CONTEXT ( 3 ) GLOBAL_UNCERTAINTY_ASSIGNED_CONTEXT ( ( #263 ) ) GLOBAL_UNIT_ASSIGNED_CONTEXT ( ( #132, #74, #160 ) ) REPRESENTATION_CONTEXT ( 'NONE', 'WORKASPACE' ) );
#51 = EDGE_LOOP ( 'NONE', ( #285, #231, #133, #184 ) ) ;
#52 = MECHANICAL_CONTEXT ( 'NONE', #89, 'mechanical' ) ;
#53 = ORIENTED_EDGE ( 'NONE', *, *, #306, .T. ) ;
#54 = DIRECTION ( 'NONE',  ( 1.000000000000000000, 0.000000000000000000, 0.000000000000000000 ) ) ;
#55 = CC_DESIGN_PERSON_AND_ORGANIZATION_ASSIGNMENT ( #232, #288, ( #228 ) ) ;
#56 = ORIENTED_EDGE ( 'NONE', *, *, #185, .F. ) ;
#57 = DIRECTION ( 'NONE',  ( -1.000000000000000000, -0.000000000000000000, -0.000000000000000000 ) ) ;
#58 = ORGANIZATION ( 'UNSPECIFIED', 'UNSPECIFIED', '' ) ;
#59 = CYLINDRICAL_SURFACE ( 'NONE', #166, 6.349999999999999645 ) ;
#60 = EDGE_CURVE ( 'NONE', #49, #308, #138, .T. ) ;
#61 = CARTESIAN_POINT ( 'NONE',  ( 3.000000000000000888, 0.000000000000000000, 0.000000000000000000 ) ) ;
#62 = CC_DESIGN_SECURITY_CLASSIFICATION ( #129, ( #289 ) ) ;
#63 = CYLINDRICAL_SURFACE ( 'NONE', #30, 6.349999999999999645 ) ;
#64 = DIRECTION ( 'NONE',  ( -1.000000000000000000, -0.000000000000000000, -0.000000000000000000 ) ) ;
#65 = VECTOR ( 'NONE', #141, 1000.000000000000000 ) ;
#66 = CYLINDRICAL_SURFACE ( 'NONE', #7, 6.349999999999999645 ) ;
#67 = CARTESIAN_POINT ( 'NONE',  ( 1.500000000000000888, 0.000000000000000000, 0.000000000000000000 ) ) ;
#68 = ADVANCED_FACE ( 'NONE', ( #213 ), #59, .F. ) ;
#69 = DIRECTION ( 'NONE',  ( -1.000000000000000000, -0.000000000000000000, -0.000000000000000000 ) ) ;
#70 = CIRCLE ( 'NONE', #29, 12.69999999999999929 ) ;
#71 = DIRECTION ( 'NONE',  ( -1.000000000000000000, -0.000000000000000000, -0.000000000000000000 ) ) ;
#72 = DATE_TIME_ROLE ( 'classification_date' ) ;
#73 = EDGE_CURVE ( 'NONE', #164, #257, #34, .T. ) ;
#74 =( NAMED_UNIT ( * ) PLANE_ANGLE_UNIT ( ) SI_UNIT ( $, .RADIAN. ) );
#75 = ORIENTED_EDGE ( 'NONE', *, *, #37, .F. ) ;
#76 = APPLICATION_PROTOCOL_DEFINITION ( 'international standard', 'config_control_design', 1994, #89 ) ;
#77 = AXIS2_PLACEMENT_3D ( 'NONE', #208, #183, #54 ) ;
#78 = EDGE_LOOP ( 'NONE', ( #75, #326, #28, #203 ) ) ;
#79 = MANIFOLD_SOLID_BREP ( 'Ðý×', #233 ) ;
#80 = VERTEX_POINT ( 'NONE', #39 ) ;
#81 = DIRECTION ( 'NONE',  ( -1.000000000000000000, 0.000000000000000000, -0.000000000000000000 ) ) ;
#82 = APPROVAL ( #279, 'UNSPECIFIED' ) ;
#83 = LINE ( 'NONE', #112, #181 ) ;
#84 = AXIS2_PLACEMENT_3D ( 'NONE', #209, #187, #104 ) ;
#85 = EDGE_CURVE ( 'NONE', #249, #260, #252, .T. ) ;
#86 = DIRECTION ( 'NONE',  ( -1.000000000000000000, -0.000000000000000000, -0.000000000000000000 ) ) ;
#87 = DIRECTION ( 'NONE',  ( -1.000000000000000000, -0.000000000000000000, -0.000000000000000000 ) ) ;
#88 = CARTESIAN_POINT ( 'NONE',  ( -1.614212418857619014, 0.000000000000000000, 6.349999999999999645 ) ) ;
#89 = APPLICATION_CONTEXT ( 'configuration controlled 3d designs of mechanical parts and assemblies' ) ;
#90 = EDGE_CURVE ( 'NONE', #308, #136, #317, .T. ) ;
#91 = DIRECTION ( 'NONE',  ( -1.000000000000000000, -0.000000000000000000, -0.000000000000000000 ) ) ;
#92 = DIRECTION ( 'NONE',  ( 0.000000000000000000, 0.000000000000000000, 1.000000000000000000 ) ) ;
#93 = CALENDAR_DATE ( 2020, 24, 12 ) ;
#94 = CARTESIAN_POINT ( 'NONE',  ( -1.614212418857619014, 0.000000000000000000, 6.349999999999999645 ) ) ;
#95 = ORIENTED_EDGE ( 'NONE', *, *, #312, .T. ) ;
#96 = PERSON_AND_ORGANIZATION_ROLE ( 'creator' ) ;
#97 = CARTESIAN_POINT ( 'NONE',  ( -3.000000000000000000, 0.000000000000000000, 0.000000000000000000 ) ) ;
#98 = DATE_AND_TIME ( #256, #284 ) ;
#99 = EDGE_LOOP ( 'NONE', ( #235, #95, #333, #106 ) ) ;
#100 = LOCAL_TIME ( 9, 49, 22.00000000000000000, #101 ) ;
#101 = COORDINATED_UNIVERSAL_TIME_OFFSET ( 8, 0, .AHEAD. ) ;
#102 = CALENDAR_DATE ( 2020, 24, 12 ) ;
#103 = ORIENTED_EDGE ( 'NONE', *, *, #306, .F. ) ;
#104 = DIRECTION ( 'NONE',  ( -0.000000000000000000, 0.000000000000000000, 1.000000000000000000 ) ) ;
#105 = VECTOR ( 'NONE', #142, 1000.000000000000000 ) ;
#106 = ORIENTED_EDGE ( 'NONE', *, *, #90, .F. ) ;
#107 = CARTESIAN_POINT ( 'NONE',  ( 3.000000000000000000, 0.000000000000000000, 0.000000000000000000 ) ) ;
#108 = ORIENTED_EDGE ( 'NONE', *, *, #295, .F. ) ;
#109 = FACE_BOUND ( 'NONE', #287, .T. ) ;
#110 = EDGE_CURVE ( 'NONE', #257, #164, #335, .T. ) ;
#111 = CARTESIAN_POINT ( 'NONE',  ( 3.000000000000000000, 0.000000000000000000, 12.69999999999999929 ) ) ;
#112 = CARTESIAN_POINT ( 'NONE',  ( -1.614212418857619014, 7.776507174585692163E-16, -6.349999999999999645 ) ) ;
#113 = DIRECTION ( 'NONE',  ( 0.000000000000000000, 0.000000000000000000, 1.000000000000000000 ) ) ;
#114 = AXIS2_PLACEMENT_3D ( 'NONE', #15, #69, #151 ) ;
#115 = ADVANCED_FACE ( 'NONE', ( #211 ), #63, .F. ) ;
#116 = CARTESIAN_POINT ( 'NONE',  ( 3.000000000000000888, 7.776507174585692163E-16, -6.349999999999999645 ) ) ;
#117 = DIRECTION ( 'NONE',  ( 0.000000000000000000, 0.000000000000000000, 1.000000000000000000 ) ) ;
#118 = PERSON_AND_ORGANIZATION ( #154, #58 ) ;
#119 = CARTESIAN_POINT ( 'NONE',  ( -1.500000000000000444, 0.000000000000000000, 0.000000000000000000 ) ) ;
#120 = DIRECTION ( 'NONE',  ( 1.000000000000000000, 0.000000000000000000, 0.000000000000000000 ) ) ;
#121 = APPROVAL_STATUS ( 'not_yet_approved' ) ;
#122 = CARTESIAN_POINT ( 'NONE',  ( 1.500000000000000888, 0.000000000000000000, 0.000000000000000000 ) ) ;
#123 = DIRECTION ( 'NONE',  ( 0.000000000000000000, 0.000000000000000000, 1.000000000000000000 ) ) ;
#124 = ORIENTED_EDGE ( 'NONE', *, *, #140, .T. ) ;
#125 = LINE ( 'NONE', #94, #294 ) ;
#126 = CYLINDRICAL_SURFACE ( 'NONE', #221, 6.349999999999999645 ) ;
#127 = COORDINATED_UNIVERSAL_TIME_OFFSET ( 8, 0, .AHEAD. ) ;
#128 = EDGE_LOOP ( 'NONE', ( #186, #224, #324, #156 ) ) ;
#129 = SECURITY_CLASSIFICATION ( '', '', #199 ) ;
#130 = ORIENTED_EDGE ( 'NONE', *, *, #42, .T. ) ;
#131 = EDGE_LOOP ( 'NONE', ( #25, #332 ) ) ;
#132 =( LENGTH_UNIT ( ) NAMED_UNIT ( * ) SI_UNIT ( .MILLI., .METRE. ) );
#133 = ORIENTED_EDGE ( 'NONE', *, *, #90, .T. ) ;
#134 = DIRECTION ( 'NONE',  ( -1.000000000000000000, -0.000000000000000000, -0.000000000000000000 ) ) ;
#135 = DESIGN_CONTEXT ( 'detailed design', #14, 'design' ) ;
#136 = VERTEX_POINT ( 'NONE', #190 ) ;
#137 = EDGE_CURVE ( 'NONE', #2, #159, #38, .T. ) ;
#138 = CIRCLE ( 'NONE', #239, 6.349999999999999645 ) ;
#139 = AXIS2_PLACEMENT_3D ( 'NONE', #67, #327, #170 ) ;
#140 = EDGE_CURVE ( 'NONE', #308, #49, #150, .T. ) ;
#141 = DIRECTION ( 'NONE',  ( -1.000000000000000000, -0.000000000000000000, -0.000000000000000000 ) ) ;
#142 = DIRECTION ( 'NONE',  ( -1.000000000000000000, -0.000000000000000000, -0.000000000000000000 ) ) ;
#143 = APPROVAL_PERSON_ORGANIZATION ( #226, #322, #196 ) ;
#144 = CARTESIAN_POINT ( 'NONE',  ( 3.000000000000000888, 0.000000000000000000, 0.000000000000000000 ) ) ;
#145 = COORDINATED_UNIVERSAL_TIME_OFFSET ( 8, 0, .AHEAD. ) ;
#146 = DIRECTION ( 'NONE',  ( 0.000000000000000000, 0.000000000000000000, 1.000000000000000000 ) ) ;
#147 = ADVANCED_FACE ( 'NONE', ( #210 ), #217, .T. ) ;
#148 = CARTESIAN_POINT ( 'NONE',  ( -1.500000000000000444, 0.000000000000000000, 6.349999999999999645 ) ) ;
#149 = SHAPE_DEFINITION_REPRESENTATION ( #12, #296 ) ;
#150 = CIRCLE ( 'NONE', #163, 6.349999999999999645 ) ;
#151 = DIRECTION ( 'NONE',  ( 0.000000000000000000, 0.000000000000000000, 1.000000000000000000 ) ) ;
#152 = COORDINATED_UNIVERSAL_TIME_OFFSET ( 8, 0, .AHEAD. ) ;
#153 = ORIENTED_EDGE ( 'NONE', *, *, #171, .F. ) ;
#154 = PERSON ( 'UNSPECIFIED', 'UNSPECIFIED', 'UNSPECIFIED', ('UNSPECIFIED'), ('UNSPECIFIED'), ('UNSPECIFIED') ) ;
#155 = APPROVAL_ROLE ( '' ) ;
#156 = ORIENTED_EDGE ( 'NONE', *, *, #238, .F. ) ;
#157 = CIRCLE ( 'NONE', #139, 6.349999999999999645 ) ;
#158 = DIRECTION ( 'NONE',  ( -1.000000000000000000, -0.000000000000000000, -0.000000000000000000 ) ) ;
#159 = VERTEX_POINT ( 'NONE', #195 ) ;
#160 =( NAMED_UNIT ( * ) SI_UNIT ( $, .STERADIAN. ) SOLID_ANGLE_UNIT ( ) );
#161 = ORIENTED_EDGE ( 'NONE', *, *, #42, .F. ) ;
#162 = FACE_OUTER_BOUND ( 'NONE', #253, .T. ) ;
#163 = AXIS2_PLACEMENT_3D ( 'NONE', #144, #64, #113 ) ;
#164 = VERTEX_POINT ( 'NONE', #43 ) ;
#165 = DIRECTION ( 'NONE',  ( -1.000000000000000000, -0.000000000000000000, -0.000000000000000000 ) ) ;
#166 = AXIS2_PLACEMENT_3D ( 'NONE', #8, #189, #271 ) ;
#167 = APPROVAL_PERSON_ORGANIZATION ( #206, #23, #320 ) ;
#168 = CARTESIAN_POINT ( 'NONE',  ( -1.614212418857619014, 0.000000000000000000, 0.000000000000000000 ) ) ;
#169 = ADVANCED_FACE ( 'NONE', ( #44, #177 ), #302, .F. ) ;
#170 = DIRECTION ( 'NONE',  ( 0.000000000000000000, 0.000000000000000000, 1.000000000000000000 ) ) ;
#171 = EDGE_CURVE ( 'NONE', #258, #159, #46, .T. ) ;
#172 = DIRECTION ( 'NONE',  ( 0.000000000000000000, 0.000000000000000000, -1.000000000000000000 ) ) ;
#173 = PERSON_AND_ORGANIZATION_ROLE ( 'design_supplier' ) ;
#174 = DIRECTION ( 'NONE',  ( 1.000000000000000000, 0.000000000000000000, 0.000000000000000000 ) ) ;
#175 = ORIENTED_EDGE ( 'NONE', *, *, #60, .T. ) ;
#176 = LOCAL_TIME ( 9, 49, 22.00000000000000000, #145 ) ;
#177 = FACE_OUTER_BOUND ( 'NONE', #207, .T. ) ;
#178 = APPROVAL_DATE_TIME ( #329, #322 ) ;
#179 = ORIENTED_EDGE ( 'NONE', *, *, #137, .F. ) ;
#180 = CARTESIAN_POINT ( 'NONE',  ( -2.999999999999999556, 0.000000000000000000, 0.000000000000000000 ) ) ;
#181 = VECTOR ( 'NONE', #158, 1000.000000000000000 ) ;
#182 = EDGE_LOOP ( 'NONE', ( #53, #205, #161, #179 ) ) ;
#183 = DIRECTION ( 'NONE',  ( 0.000000000000000000, 0.000000000000000000, 1.000000000000000000 ) ) ;
#184 = ORIENTED_EDGE ( 'NONE', *, *, #191, .T. ) ;
#185 = EDGE_CURVE ( 'NONE', #27, #136, #157, .T. ) ;
#186 = ORIENTED_EDGE ( 'NONE', *, *, #110, .T. ) ;
#187 = DIRECTION ( 'NONE',  ( -1.000000000000000000, 0.000000000000000000, -0.000000000000000000 ) ) ;
#188 = CYLINDRICAL_SURFACE ( 'NONE', #262, 12.69999999999999929 ) ;
#189 = DIRECTION ( 'NONE',  ( -1.000000000000000000, -0.000000000000000000, -0.000000000000000000 ) ) ;
#190 = CARTESIAN_POINT ( 'NONE',  ( 1.500000000000000888, 0.000000000000000000, 6.349999999999999645 ) ) ;
#191 = EDGE_CURVE ( 'NONE', #136, #27, #1, .T. ) ;
#192 = CARTESIAN_POINT ( 'NONE',  ( -1.614212418857619014, 0.000000000000000000, 0.000000000000000000 ) ) ;
#193 = VECTOR ( 'NONE', #293, 1000.000000000000000 ) ;
#194 = VECTOR ( 'NONE', #57, 1000.000000000000000 ) ;
#195 = CARTESIAN_POINT ( 'NONE',  ( -3.000000000000000000, 0.000000000000000000, 12.69999999999999929 ) ) ;
#196 = APPROVAL_ROLE ( '' ) ;
#197 = ADVANCED_FACE ( 'NONE', ( #254 ), #66, .F. ) ;
#198 = DIRECTION ( 'NONE',  ( -1.000000000000000000, -0.000000000000000000, -0.000000000000000000 ) ) ;
#199 = SECURITY_CLASSIFICATION_LEVEL ( 'unclassified' ) ;
#200 = AXIS2_PLACEMENT_3D ( 'NONE', #122, #19, #305 ) ;
#201 = PERSON_AND_ORGANIZATION ( #154, #58 ) ;
#202 = EDGE_CURVE ( 'NONE', #80, #2, #234, .T. ) ;
#203 = ORIENTED_EDGE ( 'NONE', *, *, #9, .T. ) ;
#204 = CC_DESIGN_APPROVAL ( #82, ( #129 ) ) ;
#205 = ORIENTED_EDGE ( 'NONE', *, *, #295, .T. ) ;
#206 = PERSON_AND_ORGANIZATION ( #154, #58 ) ;
#207 = EDGE_LOOP ( 'NONE', ( #130, #32 ) ) ;
#208 = CARTESIAN_POINT ( 'NONE',  ( 0.000000000000000000, 0.000000000000000000, 0.000000000000000000 ) ) ;
#209 = CARTESIAN_POINT ( 'NONE',  ( 3.000000000000000000, 12.69999999999999929, 0.000000000000000000 ) ) ;
#210 = FACE_OUTER_BOUND ( 'NONE', #182, .T. ) ;
#211 = FACE_OUTER_BOUND ( 'NONE', #78, .T. ) ;
#212 = CC_DESIGN_PERSON_AND_ORGANIZATION_ASSIGNMENT ( #307, #22, ( #129 ) ) ;
#213 = FACE_OUTER_BOUND ( 'NONE', #128, .T. ) ;
#214 = DIRECTION ( 'NONE',  ( -1.000000000000000000, -0.000000000000000000, -0.000000000000000000 ) ) ;
#215 = AXIS2_PLACEMENT_3D ( 'NONE', #107, #165, #286 ) ;
#216 = DIRECTION ( 'NONE',  ( 0.000000000000000000, 0.000000000000000000, -1.000000000000000000 ) ) ;
#217 = CYLINDRICAL_SURFACE ( 'NONE', #114, 12.69999999999999929 ) ;
#218 = PLANE ( 'NONE',  #330 ) ;
#219 = AXIS2_PLACEMENT_3D ( 'NONE', #119, #13, #315 ) ;
#220 = ORIENTED_EDGE ( 'NONE', *, *, #110, .F. ) ;
#221 = AXIS2_PLACEMENT_3D ( 'NONE', #225, #134, #3 ) ;
#222 = CARTESIAN_POINT ( 'NONE',  ( -2.999999999999999556, 0.000000000000000000, 6.349999999999999645 ) ) ;
#223 = ADVANCED_FACE ( 'NONE', ( #21 ), #218, .F. ) ;
#224 = ORIENTED_EDGE ( 'NONE', *, *, #37, .T. ) ;
#225 = CARTESIAN_POINT ( 'NONE',  ( -1.614212418857619014, 0.000000000000000000, 0.000000000000000000 ) ) ;
#226 = PERSON_AND_ORGANIZATION ( #154, #58 ) ;
#227 = DATE_AND_TIME ( #48, #310 ) ;
#228 = PRODUCT ( 'QB-CTZQWP-12.7-633-M', 'QB-CTZQWP-12.7-633-M', '', ( #52 ) ) ;
#229 = AXIS2_PLACEMENT_3D ( 'NONE', #247, #17, #123 ) ;
#230 = COORDINATED_UNIVERSAL_TIME_OFFSET ( 8, 0, .AHEAD. ) ;
#231 = ORIENTED_EDGE ( 'NONE', *, *, #140, .F. ) ;
#232 = PERSON_AND_ORGANIZATION ( #154, #58 ) ;
#233 = CLOSED_SHELL ( 'NONE', ( #147, #68, #267, #275, #197, #115, #169, #47, #316, #223 ) ) ;
#234 = CIRCLE ( 'NONE', #229, 12.69999999999999929 ) ;
#235 = ORIENTED_EDGE ( 'NONE', *, *, #60, .F. ) ;
#236 = ORIENTED_EDGE ( 'NONE', *, *, #202, .T. ) ;
#237 = DIRECTION ( 'NONE',  ( -0.000000000000000000, 0.000000000000000000, 1.000000000000000000 ) ) ;
#238 = EDGE_CURVE ( 'NONE', #257, #260, #125, .T. ) ;
#239 = AXIS2_PLACEMENT_3D ( 'NONE', #61, #6, #117 ) ;
#240 = CARTESIAN_POINT ( 'NONE',  ( -1.614212418857619014, 0.000000000000000000, 0.000000000000000000 ) ) ;
#241 = CC_DESIGN_APPROVAL ( #23, ( #301 ) ) ;
#242 = DIRECTION ( 'NONE',  ( 0.000000000000000000, 0.000000000000000000, 1.000000000000000000 ) ) ;
#243 = APPROVAL_DATE_TIME ( #248, #23 ) ;
#244 = CARTESIAN_POINT ( 'NONE',  ( -3.000000000000000000, 0.000000000000000000, 0.000000000000000000 ) ) ;
#245 = CARTESIAN_POINT ( 'NONE',  ( 1.500000000000000888, 7.776507174585692163E-16, -6.349999999999999645 ) ) ;
#246 = CIRCLE ( 'NONE', #215, 12.69999999999999929 ) ;
#247 = CARTESIAN_POINT ( 'NONE',  ( 3.000000000000000000, 0.000000000000000000, 0.000000000000000000 ) ) ;
#248 = DATE_AND_TIME ( #93, #176 ) ;
#249 = VERTEX_POINT ( 'NONE', #276 ) ;
#250 = CARTESIAN_POINT ( 'NONE',  ( -3.000000000000000000, 1.555301434917138433E-15, -12.69999999999999929 ) ) ;
#251 = PERSON_AND_ORGANIZATION_ROLE ( 'creator' ) ;
#252 = CIRCLE ( 'NONE', #292, 6.349999999999999645 ) ;
#253 = EDGE_LOOP ( 'NONE', ( #103, #24 ) ) ;
#254 = FACE_OUTER_BOUND ( 'NONE', #51, .T. ) ;
#255 = APPROVAL_STATUS ( 'not_yet_approved' ) ;
#256 = CALENDAR_DATE ( 2020, 24, 12 ) ;
#257 = VERTEX_POINT ( 'NONE', #148 ) ;
#258 = VERTEX_POINT ( 'NONE', #250 ) ;
#259 = ORIENTED_EDGE ( 'NONE', *, *, #137, .T. ) ;
#260 = VERTEX_POINT ( 'NONE', #222 ) ;
#261 = PLANE ( 'NONE',  #84 ) ;
#262 = AXIS2_PLACEMENT_3D ( 'NONE', #240, #86, #10 ) ;
#263 = UNCERTAINTY_MEASURE_WITH_UNIT (LENGTH_MEASURE( 1.000000000000000082E-05 ), #132, 'distance_accuracy_value', 'NONE');
#264 = CC_DESIGN_PERSON_AND_ORGANIZATION_ASSIGNMENT ( #201, #173, ( #289 ) ) ;
#265 = AXIS2_PLACEMENT_3D ( 'NONE', #309, #81, #237 ) ;
#266 = EDGE_LOOP ( 'NONE', ( #220, #281 ) ) ;
#267 = ADVANCED_FACE ( 'NONE', ( #278 ), #126, .F. ) ;
#268 = CC_DESIGN_PERSON_AND_ORGANIZATION_ASSIGNMENT ( #303, #251, ( #289 ) ) ;
#269 = CC_DESIGN_APPROVAL ( #322, ( #289 ) ) ;
#270 = DIRECTION ( 'NONE',  ( 0.000000000000000000, 0.000000000000000000, 1.000000000000000000 ) ) ;
#271 = DIRECTION ( 'NONE',  ( 0.000000000000000000, 0.000000000000000000, 1.000000000000000000 ) ) ;
#272 = AXIS2_PLACEMENT_3D ( 'NONE', #313, #120, #216 ) ;
#273 = AXIS2_PLACEMENT_3D ( 'NONE', #274, #321, #300 ) ;
#274 = CARTESIAN_POINT ( 'NONE',  ( -3.000000000000000000, 6.349999999999999645, 0.000000000000000000 ) ) ;
#275 = ADVANCED_FACE ( 'NONE', ( #33 ), #311, .F. ) ;
#276 = CARTESIAN_POINT ( 'NONE',  ( -2.999999999999999556, 7.776507174585692163E-16, -6.349999999999999645 ) ) ;
#277 = APPROVAL_DATE_TIME ( #98, #82 ) ;
#278 = FACE_OUTER_BOUND ( 'NONE', #99, .T. ) ;
#279 = APPROVAL_STATUS ( 'not_yet_approved' ) ;
#280 = PERSON_AND_ORGANIZATION ( #154, #58 ) ;
#281 = ORIENTED_EDGE ( 'NONE', *, *, #73, .F. ) ;
#282 = EDGE_LOOP ( 'NONE', ( #304, #56 ) ) ;
#283 = CARTESIAN_POINT ( 'NONE',  ( -1.614212418857619014, 1.555301434917138433E-15, -12.69999999999999929 ) ) ;
#284 = LOCAL_TIME ( 9, 49, 22.00000000000000000, #152 ) ;
#285 = ORIENTED_EDGE ( 'NONE', *, *, #312, .F. ) ;
#286 = DIRECTION ( 'NONE',  ( 0.000000000000000000, 0.000000000000000000, 1.000000000000000000 ) ) ;
#287 = EDGE_LOOP ( 'NONE', ( #124, #175 ) ) ;
#288 = PERSON_AND_ORGANIZATION_ROLE ( 'design_owner' ) ;
#289 = PRODUCT_DEFINITION_FORMATION_WITH_SPECIFIED_SOURCE ( 'ANY', '', #228, .NOT_KNOWN. ) ;
#290 = PRODUCT_RELATED_PRODUCT_CATEGORY ( 'detail', '', ( #228 ) ) ;
#291 = FACE_OUTER_BOUND ( 'NONE', #4, .T. ) ;
#292 = AXIS2_PLACEMENT_3D ( 'NONE', #319, #214, #41 ) ;
#293 = DIRECTION ( 'NONE',  ( -1.000000000000000000, -0.000000000000000000, -0.000000000000000000 ) ) ;
#294 = VECTOR ( 'NONE', #325, 1000.000000000000000 ) ;
#295 = EDGE_CURVE ( 'NONE', #80, #258, #26, .T. ) ;
#296 = ADVANCED_BREP_SHAPE_REPRESENTATION ( 'QB-CTZQWP-12.7-633-M', ( #79, #77 ), #50 ) ;
#297 = LINE ( 'NONE', #36, #193 ) ;
#298 = CARTESIAN_POINT ( 'NONE',  ( -1.614212418857619014, 0.000000000000000000, 12.69999999999999929 ) ) ;
#299 = AXIS2_PLACEMENT_3D ( 'NONE', #180, #87, #242 ) ;
#300 = DIRECTION ( 'NONE',  ( 0.000000000000000000, 0.000000000000000000, -1.000000000000000000 ) ) ;
#301 = PRODUCT_DEFINITION ( 'UNKNOWN', '', #289, #135 ) ;
#302 = PLANE ( 'NONE',  #273 ) ;
#303 = PERSON_AND_ORGANIZATION ( #154, #58 ) ;
#304 = ORIENTED_EDGE ( 'NONE', *, *, #191, .F. ) ;
#305 = DIRECTION ( 'NONE',  ( 0.000000000000000000, 0.000000000000000000, 1.000000000000000000 ) ) ;
#306 = EDGE_CURVE ( 'NONE', #2, #80, #246, .T. ) ;
#307 = PERSON_AND_ORGANIZATION ( #154, #58 ) ;
#308 = VERTEX_POINT ( 'NONE', #5 ) ;
#309 = CARTESIAN_POINT ( 'NONE',  ( 1.500000000000000444, 6.349999999999999645, 0.000000000000000000 ) ) ;
#310 = LOCAL_TIME ( 9, 49, 22.00000000000000000, #127 ) ;
#311 = PLANE ( 'NONE',  #265 ) ;
#312 = EDGE_CURVE ( 'NONE', #49, #27, #83, .T. ) ;
#313 = CARTESIAN_POINT ( 'NONE',  ( -1.500000000000000444, 0.000000000000000000, 0.000000000000000000 ) ) ;
#314 = DIRECTION ( 'NONE',  ( -1.000000000000000000, -0.000000000000000000, -0.000000000000000000 ) ) ;
#315 = DIRECTION ( 'NONE',  ( 0.000000000000000000, 0.000000000000000000, -1.000000000000000000 ) ) ;
#316 = ADVANCED_FACE ( 'NONE', ( #162, #109 ), #261, .F. ) ;
#317 = LINE ( 'NONE', #88, #105 ) ;
#318 = CC_DESIGN_DATE_AND_TIME_ASSIGNMENT ( #45, #328, ( #301 ) ) ;
#319 = CARTESIAN_POINT ( 'NONE',  ( -2.999999999999999556, 0.000000000000000000, 0.000000000000000000 ) ) ;
#320 = APPROVAL_ROLE ( '' ) ;
#321 = DIRECTION ( 'NONE',  ( 1.000000000000000000, 0.000000000000000000, 0.000000000000000000 ) ) ;
#322 = APPROVAL ( #255, 'UNSPECIFIED' ) ;
#323 = CARTESIAN_POINT ( 'NONE',  ( -1.500000000000000444, 6.349999999999999645, 0.000000000000000000 ) ) ;
#324 = ORIENTED_EDGE ( 'NONE', *, *, #85, .T. ) ;
#325 = DIRECTION ( 'NONE',  ( -1.000000000000000000, -0.000000000000000000, -0.000000000000000000 ) ) ;
#326 = ORIENTED_EDGE ( 'NONE', *, *, #73, .T. ) ;
#327 = DIRECTION ( 'NONE',  ( -1.000000000000000000, -0.000000000000000000, -0.000000000000000000 ) ) ;
#328 = DATE_TIME_ROLE ( 'creation_date' ) ;
#329 = DATE_AND_TIME ( #331, #40 ) ;
#330 = AXIS2_PLACEMENT_3D ( 'NONE', #323, #174, #172 ) ;
#331 = CALENDAR_DATE ( 2020, 24, 12 ) ;
#332 = ORIENTED_EDGE ( 'NONE', *, *, #85, .F. ) ;
#333 = ORIENTED_EDGE ( 'NONE', *, *, #185, .T. ) ;
#334 = APPLICATION_PROTOCOL_DEFINITION ( 'international standard', 'config_control_design', 1994, #14 ) ;
#335 = CIRCLE ( 'NONE', #272, 6.349999999999999645 ) ;
ENDSEC;
END-ISO-10303-21;
